  0
SECTION
  2
HEADER
  9
$ACADVER
  1
AC1015
  9
$ACADMAINTVER
 70
     6
  9
$DWGCODEPAGE
  3
ANSI_1254
  9
$INSBASE
 10
0.0
 20
0.0
 30
0.0
  9
$EXTMIN
 10
0.0
 20
0.0
 30
0.0
  9
$EXTMAX
 10
279.4
 20
215.9
 30
0.0
  9
$LIMMIN
 10
0.0
 20
0.0
  9
$LIMMAX
 10
279.4
 20
215.9
  9
$ORTHOMODE
 70
     0
  9
$REGENMODE
 70
     1
  9
$FILLMODE
 70
     1
  9
$QTEXTMODE
 70
     0
  9
$MIRRTEXT
 70
     1
  9
$LTSCALE
 40
1.0
  9
$ATTMODE
 70
     1
  9
$TEXTSIZE
 40
3.5
  9
$TRACEWID
 40
1.0
  9
$TEXTSTYLE
  7
Standard
  9
$CLAYER
  8
0
  9
$CELTYPE
  6
ByLayer
  9
$CECOLOR
 62
   256
  9
$CELTSCALE
 40
1.0
  9
$DISPSILH
 70
     0
  9
$DIMSCALE
 40
1.0
  9
$DIMASZ
 40
3.5
  9
$DIMEXO
 40
1.0
  9
$DIMDLI
 40
3.75
  9
$DIMRND
 40
0.0
  9
$DIMDLE
 40
0.0
  9
$DIMEXE
 40
1.0
  9
$DIMTP
 40
0.0
  9
$DIMTM
 40
0.0
  9
$DIMTXT
 40
3.5
  9
$DIMCEN
 40
2.5
  9
$DIMTSZ
 40
0.0
  9
$DIMTOL
 70
     0
  9
$DIMLIM
 70
     0
  9
$DIMTIH
 70
     1
  9
$DIMTOH
 70
     1
  9
$DIMSE1
 70
     0
  9
$DIMSE2
 70
     0
  9
$DIMTAD
 70
     1
  9
$DIMZIN
 70
     0
  9
$DIMBLK
  1

  9
$DIMASO
 70
     1
  9
$DIMSHO
 70
     1
  9
$DIMPOST
  1

  9
$DIMAPOST
  1

  9
$DIMALT
 70
     0
  9
$DIMALTD
 70
     3
  9
$DIMALTF
 40
0.0393700787
  9
$DIMLFAC
 40
1.0
  9
$DIMTOFL
 70
     1
  9
$DIMTVP
 40
0.0
  9
$DIMTIX
 70
     0
  9
$DIMSOXD
 70
     0
  9
$DIMSAH
 70
     0
  9
$DIMBLK1
  1

  9
$DIMBLK2
  1

  9
$DIMSTYLE
  2
ISO-25
  9
$DIMCLRD
 70
     0
  9
$DIMCLRE
 70
     0
  9
$DIMCLRT
 70
     0
  9
$DIMTFAC
 40
1.0
  9
$DIMGAP
 40
1.524
  9
$DIMJUST
 70
     0
  9
$DIMSD1
 70
     0
  9
$DIMSD2
 70
     0
  9
$DIMTOLJ
 70
     0
  9
$DIMTZIN
 70
     0
  9
$DIMALTZ
 70
     0
  9
$DIMALTTZ
 70
     0
  9
$DIMUPT
 70
     0
  9
$DIMDEC
 70
     2
  9
$DIMTDEC
 70
     2
  9
$DIMALTU
 70
     2
  9
$DIMALTTD
 70
     3
  9
$DIMTXSTY
  7
Standard
  9
$DIMAUNIT
 70
     0
  9
$DIMADEC
 70
     2
  9
$DIMALTRND
 40
0.0
  9
$DIMAZIN
 70
     0
  9
$DIMDSEP
 70
    44
  9
$DIMATFIT
 70
     3
  9
$DIMFRAC
 70
     0
  9
$DIMLDRBLK
  1

  9
$DIMLUNIT
 70
     2
  9
$DIMLWD
 70
    -2
  9
$DIMLWE
 70
    -2
  9
$DIMTMOVE
 70
     0
  9
$LUNITS
 70
     2
  9
$LUPREC
 70
     2
  9
$SKETCHINC
 40
1.0
  9
$FILLETRAD
 40
10.0
  9
$AUNITS
 70
     0
  9
$AUPREC
 70
     2
  9
$MENU
  1
.
  9
$ELEVATION
 40
0.0
  9
$PELEVATION
 40
0.0
  9
$THICKNESS
 40
0.0
  9
$LIMCHECK
 70
     0
  9
$CHAMFERA
 40
0.0
  9
$CHAMFERB
 40
0.0
  9
$CHAMFERC
 40
0.0
  9
$CHAMFERD
 40
0.0
  9
$SKPOLY
 70
     0
  9
$TDCREATE
 40
2458985.706147662
  9
$TDUCREATE
 40
2458985.581147662
  9
$TDUPDATE
 40
2458985.706148033
  9
$TDUUPDATE
 40
2458985.581148033
  9
$TDINDWG
 40
0.0000000116
  9
$TDUSRTIMER
 40
0.0000000116
  9
$USRTIMER
 70
     1
  9
$ANGBASE
 50
0.0
  9
$ANGDIR
 70
     0
  9
$PDMODE
 70
     0
  9
$PDSIZE
 40
-1.0
  9
$PLINEWID
 40
0.0
  9
$SPLFRAME
 70
     0
  9
$SPLINETYPE
 70
     6
  9
$SPLINESEGS
 70
     8
  9
$HANDSEED
  5
F1
  9
$SURFTAB1
 70
     6
  9
$SURFTAB2
 70
     6
  9
$SURFTYPE
 70
     6
  9
$SURFU
 70
     6
  9
$SURFV
 70
     6
  9
$UCSBASE
  2

  9
$UCSNAME
  2

  9
$UCSORG
 10
0.0
 20
0.0
 30
0.0
  9
$UCSXDIR
 10
1.0
 20
0.0
 30
0.0
  9
$UCSYDIR
 10
0.0
 20
1.0
 30
0.0
  9
$UCSORTHOREF
  2

  9
$UCSORTHOVIEW
 70
     0
  9
$UCSORGTOP
 10
0.0
 20
0.0
 30
0.0
  9
$UCSORGBOTTOM
 10
0.0
 20
0.0
 30
0.0
  9
$UCSORGLEFT
 10
0.0
 20
0.0
 30
0.0
  9
$UCSORGRIGHT
 10
0.0
 20
0.0
 30
0.0
  9
$UCSORGFRONT
 10
0.0
 20
0.0
 30
0.0
  9
$UCSORGBACK
 10
0.0
 20
0.0
 30
0.0
  9
$PUCSBASE
  2

  9
$PUCSNAME
  2

  9
$PUCSORG
 10
0.0
 20
0.0
 30
0.0
  9
$PUCSXDIR
 10
1.0
 20
0.0
 30
0.0
  9
$PUCSYDIR
 10
0.0
 20
1.0
 30
0.0
  9
$PUCSORTHOREF
  2

  9
$PUCSORTHOVIEW
 70
     0
  9
$PUCSORGTOP
 10
0.0
 20
0.0
 30
0.0
  9
$PUCSORGBOTTOM
 10
0.0
 20
0.0
 30
0.0
  9
$PUCSORGLEFT
 10
0.0
 20
0.0
 30
0.0
  9
$PUCSORGRIGHT
 10
0.0
 20
0.0
 30
0.0
  9
$PUCSORGFRONT
 10
0.0
 20
0.0
 30
0.0
  9
$PUCSORGBACK
 10
0.0
 20
0.0
 30
0.0
  9
$USERI1
 70
     0
  9
$USERI2
 70
     0
  9
$USERI3
 70
     0
  9
$USERI4
 70
     0
  9
$USERI5
 70
     0
  9
$USERR1
 40
0.0
  9
$USERR2
 40
0.0
  9
$USERR3
 40
0.0
  9
$USERR4
 40
0.0
  9
$USERR5
 40
0.0
  9
$WORLDVIEW
 70
     1
  9
$SHADEDGE
 70
     3
  9
$SHADEDIF
 70
    70
  9
$TILEMODE
 70
     1
  9
$MAXACTVP
 70
    64
  9
$PINSBASE
 10
0.0
 20
0.0
 30
0.0
  9
$PLIMCHECK
 70
     0
  9
$PEXTMIN
 10
1.0000000000E+20
 20
1.0000000000E+20
 30
1.0000000000E+20
  9
$PEXTMAX
 10
-1.0000000000E+20
 20
-1.0000000000E+20
 30
-1.0000000000E+20
  9
$PLIMMIN
 10
0.0
 20
0.0
  9
$PLIMMAX
 10
420.0
 20
297.0
  9
$UNITMODE
 70
     0
  9
$VISRETAIN
 70
     1
  9
$PLINEGEN
 70
     0
  9
$PSLTSCALE
 70
     1
  9
$TREEDEPTH
 70
  3020
  9
$CMLSTYLE
  2
Standard
  9
$CMLJUST
 70
     0
  9
$CMLSCALE
 40
20.0
  9
$PROXYGRAPHICS
 70
     1
  9
$MEASUREMENT
 70
     1
  9
$CELWEIGHT
370
    -1
  9
$ENDCAPS
280
     0
  9
$JOINSTYLE
280
     0
  9
$LWDISPLAY
290
     1
  9
$INSUNITS
 70
     4
  9
$HYPERLINKBASE
  1

  9
$STYLESHEET
  1

  9
$XEDIT
290
     1
  9
$CEPSNTYPE
380
     0
  9
$PSTYLEMODE
290
     1
  9
$FINGERPRINTGUID
  2
{82cdda77-6a8a-4e4f-ae1f-a72edf4d3b8d}
  9
$VERSIONGUID
  2
{FAEB1C32-E019-11D5-929B-00C0DF256EC4}
  9
$EXTNAMES
290
     1
  9
$PSVPSCALE
 40
0.0
  9
$OLESTARTUP
290
     0
  0
ENDSEC
  0
SECTION
  2
CLASSES
  0
CLASS
  1
ACDBDICTIONARYWDFLT
  2
AcDbDictionaryWithDefault
  3
ObjectDBX Classes
 90
        0
280
     0
281
     0
  0
CLASS
  1
VISUALSTYLE
  2
AcDbVisualStyle
  3
ObjectDBX Classes
 90
     4095
280
     0
281
     0
  0
CLASS
  1
MATERIAL
  2
AcDbMaterial
  3
ObjectDBX Classes
 90
     1153
280
     0
281
     0
  0
CLASS
  1
SCALE
  2
AcDbScale
  3
ObjectDBX Classes
 90
     1153
280
     0
281
     0
  0
CLASS
  1
TABLESTYLE
  2
AcDbTableStyle
  3
ObjectDBX Classes
 90
     4095
280
     0
281
     0
  0
CLASS
  1
MLEADERSTYLE
  2
AcDbMLeaderStyle
  3
ACDB_MLEADERSTYLE_CLASS
 90
     4095
280
     0
281
     0
  0
CLASS
  1
SUN
  2
AcDbSun
  3
SCENEOE
 90
     1153
280
     0
281
     0
  0
CLASS
  1
ACDBPLACEHOLDER
  2
AcDbPlaceHolder
  3
ObjectDBX Classes
 90
        0
280
     0
281
     0
  0
CLASS
  1
LAYOUT
  2
AcDbLayout
  3
ObjectDBX Classes
 90
        0
280
     0
281
     0
  0
ENDSEC
  0
SECTION
  2
TABLES
  0
TABLE
  2
VPORT
  5
8
330
0
100
AcDbSymbolTable
 70
     1
  0
VPORT
  5
29
330
8
100
AcDbSymbolTableRecord
100
AcDbViewportTableRecord
  2
*Active
 70
     0
 10
0.0
 20
0.0
 11
1.0
 21
1.0
 12
139.7
 22
107.95
 13
0.0
 23
0.0
 14
10.0
 24
10.0
 15
10.0
 25
10.0
 16
0.0
 26
0.0
 36
1.0
 17
0.0
 27
0.0
 37
0.0
 40
215.9
 41
1.2941176471
 42
50.0
 43
0.0
 44
0.0
 50
0.0
 51
0.0
 71
     0
 72
  2000
 73
     1
 74
     3
 75
     0
 76
     0
 77
     0
 78
     0
281
     0
 65
     1
110
0.0
120
0.0
130
0.0
111
1.0
121
0.0
131
0.0
112
0.0
122
1.0
132
0.0
 79
     0
146
0.0
  0
ENDTAB
  0
TABLE
  2
LTYPE
  5
5
330
0
100
AcDbSymbolTable
 70
     6
  0
LTYPE
  5
14
330
5
100
AcDbSymbolTableRecord
100
AcDbLinetypeTableRecord
  2
ByBlock
 70
     0
  3

 72
    65
 73
     0
 40
0.0
  0
LTYPE
  5
15
330
5
100
AcDbSymbolTableRecord
100
AcDbLinetypeTableRecord
  2
ByLayer
 70
     0
  3

 72
    65
 73
     0
 40
0.0
  0
LTYPE
  5
16
330
5
100
AcDbSymbolTableRecord
100
AcDbLinetypeTableRecord
  2
Continuous
 70
     0
  3
Solid line
 72
    65
 73
     0
 40
0.0
  0
LTYPE
  5
6E
330
5
100
AcDbSymbolTableRecord
100
AcDbLinetypeTableRecord
  2
HIDDEN
 70
     0
  3
Hidden __ __ __ __ __ __ __ __ __ __ __ __ __ __
 72
    65
 73
     2
 40
1.905
 49
1.27
 74
     0
 49
-0.635
 74
     0
  0
LTYPE
  5
6F
330
5
100
AcDbSymbolTableRecord
100
AcDbLinetypeTableRecord
  2
PHANTOM
 70
     0
  3
Phantom ______  __  __  ______  __  __  ______
 72
    65
 73
     6
 40
12.7
 49
6.35
 74
     0
 49
-1.27
 74
     0
 49
1.27
 74
     0
 49
-1.27
 74
     0
 49
1.27
 74
     0
 49
-1.27
 74
     0
  0
LTYPE
  5
70
330
5
100
AcDbSymbolTableRecord
100
AcDbLinetypeTableRecord
  2
CENTER
 70
     0
  3
Center ____ _ ____ _ ____ _ ____ _ ____ _ ____
 72
    65
 73
     4
 40
10.16
 49
6.35
 74
     0
 49
-1.27
 74
     0
 49
1.27
 74
     0
 49
-1.27
 74
     0
  0
LTYPE
  5
71
330
5
100
AcDbSymbolTableRecord
100
AcDbLinetypeTableRecord
  2
CENTERX2
 70
     0
  3
Center (2x) ________  __  ________  __  _____
 72
    65
 73
     4
 40
20.32
 49
12.7
 74
     0
 49
-2.54
 74
     0
 49
2.54
 74
     0
 49
-2.54
 74
     0
  0
LTYPE
  5
72
330
5
100
AcDbSymbolTableRecord
100
AcDbLinetypeTableRecord
  2
DOT2
 70
     0
  3
Dot (.5x) ........................................
 72
    65
 73
     2
 40
0.635
 49
0.0
 74
     0
 49
-0.635
 74
     0
  0
ENDTAB
  0
TABLE
  2
LAYER
  5
2
330
0
100
AcDbSymbolTable
 70
    17
  0
LAYER
  5
10
330
2
100
AcDbSymbolTableRecord
100
AcDbLayerTableRecord
  2
0
 70
     0
 62
     7
  6
Continuous
370
    -3
390
F
  0
LAYER
  5
73
330
2
100
AcDbSymbolTableRecord
100
AcDbLayerTableRecord
  2
FORMAT
 70
     0
 62
     7
  6
Continuous
370
    -3
390
F
  0
LAYER
  5
74
330
2
100
AcDbSymbolTableRecord
100
AcDbLayerTableRecord
  2
YARDIMCI_GEOMETRI
 70
     0
 62
    -6
  6
Continuous
290
     0
370
    -3
390
F
  0
LAYER
  5
75
330
2
100
AcDbSymbolTableRecord
100
AcDbLayerTableRecord
  2
SAYFA_CERCEVESI
 70
     0
 62
     7
  6
Continuous
370
    25
390
F
  0
LAYER
  5
76
330
2
100
AcDbSymbolTableRecord
100
AcDbLayerTableRecord
  2
ANTET
 70
     0
 62
     7
  6
Continuous
370
    -3
390
F
  0
LAYER
  5
77
330
2
100
AcDbSymbolTableRecord
100
AcDbLayerTableRecord
  2
OLCU
 70
     0
 62
   150
  6
Continuous
370
    -3
390
F
  0
LAYER
  5
78
330
2
100
AcDbSymbolTableRecord
100
AcDbLayerTableRecord
  2
METIN
 70
     0
 62
    96
  6
Continuous
370
    -3
390
F
  0
LAYER
  5
79
330
2
100
AcDbSymbolTableRecord
100
AcDbLayerTableRecord
  2
BALON
 70
     0
 62
     5
  6
Continuous
370
    -3
390
F
  0
LAYER
  5
7A
330
2
100
AcDbSymbolTableRecord
100
AcDbLayerTableRecord
  2
VURGU
 70
     0
 62
     7
  6
Continuous
370
    -3
390
F
  0
LAYER
  5
7B
330
2
100
AcDbSymbolTableRecord
100
AcDbLayerTableRecord
  2
SILIK
 70
     0
 62
     7
  6
Continuous
370
    -3
390
F
  0
LAYER
  5
7C
330
2
100
AcDbSymbolTableRecord
100
AcDbLayerTableRecord
  2
MODEL
 70
     0
 62
     7
  6
Continuous
370
    -3
390
F
  0
LAYER
  5
7D
330
2
100
AcDbSymbolTableRecord
100
AcDbLayerTableRecord
  2
DETAYLANDıRMA
 70
     0
 62
   190
  6
Continuous
370
    -3
390
F
  0
LAYER
  5
7E
330
2
100
AcDbSymbolTableRecord
100
AcDbLayerTableRecord
  2
TOLERANS
 70
     0
 62
   230
  6
Continuous
370
    -3
390
F
  0
LAYER
  5
7F
330
2
100
AcDbSymbolTableRecord
100
AcDbLayerTableRecord
  2
MERKEZ_CIZGILERI
 70
     0
 62
    30
  6
Continuous
370
    -3
390
F
  0
LAYER
  5
80
330
2
100
AcDbSymbolTableRecord
100
AcDbLayerTableRecord
  2
KESIT-DETAY_CIZGILERI
 70
     0
 62
     7
  6
Continuous
370
    -3
390
F
  0
LAYER
  5
81
330
2
100
AcDbSymbolTableRecord
100
AcDbLayerTableRecord
  2
\U+041E\U+0421\U+0415\U+0412\U+042B\U+0415
 70
     0
 62
     7
  6
Continuous
370
    -3
390
F
  0
LAYER
  5
82
330
2
100
AcDbSymbolTableRecord
100
AcDbLayerTableRecord
  2
\U+0412\U+041E\U+0414\U+042F\U+041D\U+042B\U+0415_\U+0417\U+041D\U+0410\U+041A\U+0418
 70
     0
 62
    11
  6
Continuous
370
    -3
390
F
  0
ENDTAB
  0
TABLE
  2
STYLE
  5
3
330
0
100
AcDbSymbolTable
 70
     1
  0
STYLE
  5
11
330
3
100
AcDbSymbolTableRecord
100
AcDbTextStyleTableRecord
  2
Standard
 70
     0
 40
0.0
 41
1.0
 50
0.0
 71
     0
 42
3.5
  3
txt
  4

  0
ENDTAB
  0
TABLE
  2
VIEW
  5
6
330
0
100
AcDbSymbolTable
 70
     0
  0
ENDTAB
  0
TABLE
  2
UCS
  5
7
330
0
100
AcDbSymbolTable
 70
     0
  0
ENDTAB
  0
TABLE
  2
APPID
  5
9
330
0
100
AcDbSymbolTable
 70
     1
  0
APPID
  5
12
330
9
100
AcDbSymbolTableRecord
100
AcDbRegAppTableRecord
  2
ACAD
 70
     0
  0
ENDTAB
  0
TABLE
  2
DIMSTYLE
  5
A
330
0
100
AcDbSymbolTable
 70
     1
100
AcDbDimStyleTable
  0
DIMSTYLE
105
27
330
A
100
AcDbSymbolTableRecord
100
AcDbDimStyleTableRecord
  2
ISO-25
 70
     0
 41
2.5
 42
0.625
 43
3.75
 44
1.25
 73
     0
 74
     0
 77
     1
 78
     8
140
2.5
141
2.5
143
0.0393700787
147
0.625
171
     3
172
     1
178
     0
271
     2
272
     2
274
     3
278
    44
283
     0
284
     8
340
11
  0
ENDTAB
  0
TABLE
  2
BLOCK_RECORD
  5
1
330
0
100
AcDbSymbolTable
 70
     2
  0
BLOCK_RECORD
  5
1F
330
1
100
AcDbSymbolTableRecord
100
AcDbBlockTableRecord
  2
*Model_Space
340
22
  0
BLOCK_RECORD
  5
1B
330
1
100
AcDbSymbolTableRecord
100
AcDbBlockTableRecord
  2
*Paper_Space
340
1E
  0
BLOCK_RECORD
  5
23
330
1
100
AcDbSymbolTableRecord
100
AcDbBlockTableRecord
  2
*Paper_Space0
340
26
  0
BLOCK_RECORD
  5
88
330
1
100
AcDbSymbolTableRecord
100
AcDbBlockTableRecord
  2
SW_CENTERMARKSYMBOL_0
340
0
102
{BLKREFS
331
93
102
}
  0
ENDTAB
  0
ENDSEC
  0
SECTION
  2
BLOCKS
  0
BLOCK
  5
20
330
1F
100
AcDbEntity
  8
0
100
AcDbBlockBegin
  2
*Model_Space
 70
     0
 10
0.0
 20
0.0
 30
0.0
  3
*Model_Space
  1

  0
ENDBLK
  5
21
330
1F
100
AcDbEntity
  8
0
100
AcDbBlockEnd
  0
BLOCK
  5
1C
330
1B
100
AcDbEntity
 67
     1
  8
0
100
AcDbBlockBegin
  2
*Paper_Space
 70
     0
 10
0.0
 20
0.0
 30
0.0
  3
*Paper_Space
  1

  0
ENDBLK
  5
1D
330
1B
100
AcDbEntity
 67
     1
  8
0
100
AcDbBlockEnd
  0
BLOCK
  5
24
330
23
100
AcDbEntity
  8
0
100
AcDbBlockBegin
  2
*Paper_Space0
 70
     0
 10
0.0
 20
0.0
 30
0.0
  3
*Paper_Space0
  1

  0
ENDBLK
  5
25
330
23
100
AcDbEntity
  8
0
100
AcDbBlockEnd
  0
BLOCK
  5
89
330
88
100
AcDbEntity
  8
0
100
AcDbBlockBegin
  2
SW_CENTERMARKSYMBOL_0
 70
     0
 10
0.0
 20
0.0
 30
0.0
  3
SW_CENTERMARKSYMBOL_0
  1

  0
LINE
  5
8B
330
88
100
AcDbEntity
  8
FORMAT
 62
     0
100
AcDbLine
 10
0.0
 20
0.0
 30
0.0
 11
0.0
 21
2.5
 31
0.0
  0
LINE
  5
8C
330
88
100
AcDbEntity
  8
FORMAT
 62
     0
100
AcDbLine
 10
0.0
 20
0.0
 30
0.0
 11
-2.5
 21
0.0
 31
0.0
  0
LINE
  5
8D
330
88
100
AcDbEntity
  8
FORMAT
 62
     0
100
AcDbLine
 10
0.0
 20
0.0
 30
0.0
 11
0.0
 21
-2.5
 31
0.0
  0
LINE
  5
8E
330
88
100
AcDbEntity
  8
FORMAT
 62
     0
100
AcDbLine
 10
0.0
 20
0.0
 30
0.0
 11
2.5
 21
0.0
 31
0.0
  0
LINE
  5
8F
330
88
100
AcDbEntity
  8
FORMAT
 62
     0
100
AcDbLine
 10
0.0
 20
5.0
 30
0.0
 11
0.0
 21
142.5
 31
0.0
  0
LINE
  5
90
330
88
100
AcDbEntity
  8
FORMAT
 62
     0
100
AcDbLine
 10
-5.0
 20
0.0
 30
0.0
 11
-142.5
 21
0.0
 31
0.0
  0
LINE
  5
91
330
88
100
AcDbEntity
  8
FORMAT
 62
     0
100
AcDbLine
 10
0.0
 20
-5.0
 30
0.0
 11
0.0
 21
-142.5
 31
0.0
  0
LINE
  5
92
330
88
100
AcDbEntity
  8
FORMAT
 62
     0
100
AcDbLine
 10
5.0
 20
0.0
 30
0.0
 11
142.5
 21
0.0
 31
0.0
  0
ENDBLK
  5
8A
330
88
100
AcDbEntity
  8
0
100
AcDbBlockEnd
  0
ENDSEC
  0
SECTION
  2
ENTITIES
  0
CIRCLE
  5
83
330
1F
100
AcDbEntity
  8
0
  6
Continuous
 62
     7
370
    25
100
AcDbCircle
 10
130.6810329512
 20
112.0420513222
 30
0.0
 40
140.0
  0
CIRCLE
  5
84
330
1F
100
AcDbEntity
  8
0
  6
Continuous
 62
     7
370
    25
100
AcDbCircle
 10
130.6810329512
 20
112.0420513222
 30
0.0
 40
123.4
  0
CIRCLE
  5
85
330
1F
100
AcDbEntity
  8
0
  6
Continuous
 62
     7
370
    25
100
AcDbCircle
 10
130.6810329512
 20
112.0420513222
 30
0.0
 40
123.1087095579742
  0
CIRCLE
  5
86
330
1F
100
AcDbEntity
  8
0
  6
Continuous
 62
     7
370
    25
100
AcDbCircle
 10
130.6810329512
 20
112.0420513222
 30
0.0
 40
99.39129044202583
  0
CIRCLE
  5
87
330
1F
100
AcDbEntity
  8
0
  6
Continuous
 62
     7
370
    25
100
AcDbCircle
 10
130.6810329512
 20
112.0420513222
 30
0.0
 40
99.10000000000004
  0
INSERT
  5
93
330
1F
100
AcDbEntity
  8
FORMAT
 62
     7
100
AcDbBlockReference
  2
SW_CENTERMARKSYMBOL_0
 10
130.6810329512
 20
112.0420513222
 30
0.0
  0
ARC
  5
94
330
1F
100
AcDbEntity
  8
0
  6
Continuous
 62
     7
370
    25
100
AcDbCircle
 10
-437.9347345581
 20
250.0420513222
 30
0.0
 40
2.000000000000039
100
AcDbArc
 50
70.3461759419
 51
90.0
  0
ARC
  5
95
330
1F
100
AcDbEntity
  8
0
  6
Continuous
 62
     7
370
    25
100
AcDbCircle
 10
-437.9347345581
 20
-25.9579486778
 30
0.0
 40
2.000000000000022
100
AcDbArc
 50
270.0
 51
289.6538240581
  0
LINE
  5
96
330
1F
100
AcDbEntity
  8
0
  6
Continuous
 62
     7
370
    25
100
AcDbLine
 10
-437.9347359112
 20
252.0420519183
 30
0.0
 11
-576.5883122853
 21
252.0420519183
 31
0.0
  0
LINE
  5
97
330
1F
100
AcDbEntity
  8
0
  6
Continuous
 62
     7
370
    25
100
AcDbLine
 10
-576.5883122853
 20
-27.9579492738
 30
0.0
 11
-437.9347359112
 21
-27.9579492738
 31
0.0
  0
LINE
  5
98
330
1F
100
AcDbEntity
  8
0
  6
Continuous
 62
     7
370
    25
100
AcDbLine
 10
-437.262060242
 20
-27.8414370945
 30
0.0
 11
-360.9145527056
 21
-0.5744653275
 31
0.0
  0
LINE
  5
99
330
1F
100
AcDbEntity
  8
0
  6
Continuous
 62
     7
370
    25
100
AcDbLine
 10
-360.9145527056
 20
224.6585679719
 30
0.0
 11
-437.262060242
 21
251.9255397389
 31
0.0
  0
ARC
  5
9A
330
1F
100
AcDbEntity
  8
0
  6
Continuous
 62
     7
370
    25
100
AcDbCircle
 10
-360.2418795602
 20
226.5420513222
 30
0.0
 40
2.0
100
AcDbArc
 50
250.3461759419
 51
270.0
  0
ARC
  5
9B
330
1F
100
AcDbEntity
  8
0
  6
Continuous
 62
     7
370
    25
100
AcDbCircle
 10
-360.2418795602
 20
-2.4579486778
 30
0.0
 40
1.999999999999988
100
AcDbArc
 50
90.0
 51
109.6538240581
  0
LINE
  5
9C
330
1F
100
AcDbEntity
  8
0
  6
Continuous
 62
     7
370
    25
100
AcDbLine
 10
-240.5883019141
 20
224.542048342
 30
0.0
 11
-360.2418807617
 21
224.542048342
 31
0.0
  0
LINE
  5
9D
330
1F
100
AcDbEntity
  8
0
  6
Continuous
 62
     7
370
    25
100
AcDbLine
 10
-360.2418807617
 20
-0.4579456975
 30
0.0
 11
-240.5883019141
 21
-0.4579456975
 31
0.0
  0
LINE
  5
9E
330
1F
100
AcDbEntity
  8
0
  6
Continuous
 62
     7
370
    25
100
AcDbLine
 10
-576.5883122853
 20
252.0420519183
 30
0.0
 11
-576.5883122853
 21
-27.9579492738
 31
0.0
  0
LINE
  5
9F
330
1F
100
AcDbEntity
  8
0
  6
Continuous
 62
     7
370
    25
100
AcDbLine
 10
-240.5883019141
 20
224.542048342
 30
0.0
 11
-240.5883019141
 21
-0.4579456975
 31
0.0
  0
LINE
  5
A0
330
1F
100
AcDbEntity
  8
0
  6
Continuous
 62
     1
370
    25
100
AcDbLine
 10
-437.262060242
 20
251.9255397389
 30
0.0
 11
-437.262060242
 21
-27.8414370945
 31
0.0
  0
LINE
  5
A1
330
1F
100
AcDbEntity
  8
0
  6
Continuous
 62
     1
370
    25
100
AcDbLine
 10
-437.9347359112
 20
252.0420519183
 30
0.0
 11
-437.9347359112
 21
-27.9579492738
 31
0.0
  0
LINE
  5
A2
330
1F
100
AcDbEntity
  8
0
  6
Continuous
 62
     1
370
    25
100
AcDbLine
 10
-360.9145527056
 20
224.6585679719
 30
0.0
 11
-360.9145527056
 21
-0.5744653275
 31
0.0
  0
LINE
  5
A3
330
1F
100
AcDbEntity
  8
0
  6
Continuous
 62
     1
370
    25
100
AcDbLine
 10
-360.2418807617
 20
224.542048342
 30
0.0
 11
-360.2418807617
 21
-0.4579456975
 31
0.0
  0
ARC
  5
A4
330
1F
100
AcDbEntity
  8
0
  6
Continuous
 62
     7
370
    25
100
AcDbCircle
 10
268.6810329512
 20
540.3371600179
 30
0.0
 40
2.00000000000005
100
AcDbArc
 50
340.3461759419
 51
0.0
  0
ARC
  5
A5
330
1F
100
AcDbEntity
  8
0
  6
Continuous
 62
     7
370
    25
100
AcDbCircle
 10
-7.3189670488
 20
540.3371600179
 30
0.0
 40
2.00000000000006
100
AcDbArc
 50
180.0
 51
199.6538240581
  0
LINE
  5
A6
330
1F
100
AcDbEntity
  8
0
  6
Continuous
 62
     7
370
    25
100
AcDbLine
 10
270.6810335472
 20
540.3371613711
 30
0.0
 11
270.6810335472
 21
678.9907377451
 31
0.0
  0
LINE
  5
A7
330
1F
100
AcDbEntity
  8
0
  6
Continuous
 62
     7
370
    25
100
AcDbLine
 10
-9.3189676449
 20
678.9907377451
 30
0.0
 11
-9.3189676449
 21
540.3371613711
 31
0.0
  0
LINE
  5
A8
330
1F
100
AcDbEntity
  8
0
  6
Continuous
 62
     7
370
    25
100
AcDbLine
 10
-9.2024554655
 20
539.6644857019
 30
0.0
 11
18.0645163014
 21
463.3169781655
 31
0.0
  0
LINE
  5
A9
330
1F
100
AcDbEntity
  8
0
  6
Continuous
 62
     7
370
    25
100
AcDbLine
 10
243.2975496009
 20
463.3169781655
 30
0.0
 11
270.5645213678
 21
539.6644857019
 31
0.0
  0
ARC
  5
AA
330
1F
100
AcDbEntity
  8
0
  6
Continuous
 62
     7
370
    25
100
AcDbCircle
 10
245.1810329512
 20
462.6443050201
 30
0.0
 40
2.0
100
AcDbArc
 50
160.3461759419
 51
180.0
  0
ARC
  5
AB
330
1F
100
AcDbEntity
  8
0
  6
Continuous
 62
     7
370
    25
100
AcDbCircle
 10
16.1810329512
 20
462.6443050201
 30
0.0
 40
1.999999999999986
100
AcDbArc
 50
0.0
 51
19.6538240581
  0
LINE
  5
AC
330
1F
100
AcDbEntity
  8
0
  6
Continuous
 62
     7
370
    25
100
AcDbLine
 10
243.1810299709
 20
342.9907273739
 30
0.0
 11
243.1810299709
 21
462.6443062216
 31
0.0
  0
LINE
  5
AD
330
1F
100
AcDbEntity
  8
0
  6
Continuous
 62
     7
370
    25
100
AcDbLine
 10
18.1810359314
 20
462.6443062216
 30
0.0
 11
18.1810359314
 21
342.9907273739
 31
0.0
  0
LINE
  5
AE
330
1F
100
AcDbEntity
  8
0
  6
Continuous
 62
     7
370
    25
100
AcDbLine
 10
270.6810335472
 20
678.9907377451
 30
0.0
 11
-9.3189676449
 21
678.9907377451
 31
0.0
  0
LINE
  5
AF
330
1F
100
AcDbEntity
  8
0
  6
Continuous
 62
     7
370
    25
100
AcDbLine
 10
243.1810299709
 20
342.9907273739
 30
0.0
 11
18.1810359314
 21
342.9907273739
 31
0.0
  0
LINE
  5
B0
330
1F
100
AcDbEntity
  8
0
  6
Continuous
 62
     1
370
    25
100
AcDbLine
 10
270.5645213678
 20
539.6644857019
 30
0.0
 11
-9.2024554655
 21
539.6644857019
 31
0.0
  0
LINE
  5
B1
330
1F
100
AcDbEntity
  8
0
  6
Continuous
 62
     1
370
    25
100
AcDbLine
 10
270.6810335472
 20
540.3371613711
 30
0.0
 11
-9.3189676449
 21
540.3371613711
 31
0.0
  0
LINE
  5
B2
330
1F
100
AcDbEntity
  8
0
  6
Continuous
 62
     1
370
    25
100
AcDbLine
 10
243.2975496009
 20
463.3169781655
 30
0.0
 11
18.0645163014
 21
463.3169781655
 31
0.0
  0
LINE
  5
B3
330
1F
100
AcDbEntity
  8
0
  6
Continuous
 62
     1
370
    25
100
AcDbLine
 10
243.1810299709
 20
462.6443062216
 30
0.0
 11
18.1810359314
 21
462.6443062216
 31
0.0
  0
ARC
  5
B4
330
1F
100
AcDbEntity
  8
0
  6
Continuous
 62
     7
370
    25
100
AcDbCircle
 10
696.8120651794
 20
-25.9579486778
 30
0.0
 40
2.00000000000006
100
AcDbArc
 50
250.3461759419
 51
270.0
  0
ARC
  5
B5
330
1F
100
AcDbEntity
  8
0
  6
Continuous
 62
     7
370
    25
100
AcDbCircle
 10
696.8120651794
 20
250.0420513222
 30
0.0
 40
2.000000000000077
100
AcDbArc
 50
90.0
 51
109.6538240581
  0
LINE
  5
B6
330
1F
100
AcDbEntity
  8
0
  6
Continuous
 62
     7
370
    25
100
AcDbLine
 10
696.8120665326
 20
-27.9579492738
 30
0.0
 11
835.4656429066
 21
-27.9579492738
 31
0.0
  0
LINE
  5
B7
330
1F
100
AcDbEntity
  8
0
  6
Continuous
 62
     7
370
    25
100
AcDbLine
 10
835.4656429066
 20
252.0420519183
 30
0.0
 11
696.8120665326
 21
252.0420519183
 31
0.0
  0
LINE
  5
B8
330
1F
100
AcDbEntity
  8
0
  6
Continuous
 62
     7
370
    25
100
AcDbLine
 10
696.1393908634
 20
251.9255397389
 30
0.0
 11
619.791883327
 21
224.6585679719
 31
0.0
  0
LINE
  5
B9
330
1F
100
AcDbEntity
  8
0
  6
Continuous
 62
     7
370
    25
100
AcDbLine
 10
619.791883327
 20
-0.5744653275
 30
0.0
 11
696.1393908634
 21
-27.8414370945
 31
0.0
  0
ARC
  5
BA
330
1F
100
AcDbEntity
  8
0
  6
Continuous
 62
     7
370
    25
100
AcDbCircle
 10
619.1192101816
 20
-2.4579486778
 30
0.0
 40
1.999999999999988
100
AcDbArc
 50
70.3461759419
 51
90.0
  0
ARC
  5
BB
330
1F
100
AcDbEntity
  8
0
  6
Continuous
 62
     7
370
    25
100
AcDbCircle
 10
619.1192101816
 20
226.5420513222
 30
0.0
 40
2.0
100
AcDbArc
 50
270.0
 51
289.6538240581
  0
LINE
  5
BC
330
1F
100
AcDbEntity
  8
0
  6
Continuous
 62
     7
370
    25
100
AcDbLine
 10
499.4656325354
 20
-0.4579456975
 30
0.0
 11
619.1192113831
 21
-0.4579456975
 31
0.0
  0
LINE
  5
BD
330
1F
100
AcDbEntity
  8
0
  6
Continuous
 62
     7
370
    25
100
AcDbLine
 10
619.1192113831
 20
224.542048342
 30
0.0
 11
499.4656325354
 21
224.542048342
 31
0.0
  0
LINE
  5
BE
330
1F
100
AcDbEntity
  8
0
  6
Continuous
 62
     7
370
    25
100
AcDbLine
 10
835.4656429066
 20
112.0420513222
 30
0.0
 11
835.4656429066
 21
252.0420519183
 31
0.0
  0
LINE
  5
BF
330
1F
100
AcDbEntity
  8
0
  6
Continuous
 62
     7
370
    25
100
AcDbLine
 10
835.4656429066
 20
-27.9579492738
 30
0.0
 11
835.4656429066
 21
112.0420513222
 31
0.0
  0
LINE
  5
C0
330
1F
100
AcDbEntity
  8
0
  6
Continuous
 62
     7
370
    25
100
AcDbLine
 10
499.4656325354
 20
112.0420513222
 30
0.0
 11
499.4656325354
 21
224.542048342
 31
0.0
  0
LINE
  5
C1
330
1F
100
AcDbEntity
  8
0
  6
Continuous
 62
     7
370
    25
100
AcDbLine
 10
499.4656325354
 20
-0.4579456975
 30
0.0
 11
499.4656325354
 21
112.0420513222
 31
0.0
  0
LINE
  5
C2
330
1F
100
AcDbEntity
  8
0
  6
Continuous
 62
     1
370
    25
100
AcDbLine
 10
696.1393908634
 20
112.0420513222
 30
0.0
 11
696.1393908634
 21
251.9255397389
 31
0.0
  0
LINE
  5
C3
330
1F
100
AcDbEntity
  8
0
  6
Continuous
 62
     1
370
    25
100
AcDbLine
 10
696.1393908634
 20
-27.8414370945
 30
0.0
 11
696.1393908634
 21
112.0420513222
 31
0.0
  0
LINE
  5
C4
330
1F
100
AcDbEntity
  8
0
  6
Continuous
 62
     1
370
    25
100
AcDbLine
 10
696.8120665326
 20
112.0420513222
 30
0.0
 11
696.8120665326
 21
252.0420519183
 31
0.0
  0
LINE
  5
C5
330
1F
100
AcDbEntity
  8
0
  6
Continuous
 62
     1
370
    25
100
AcDbLine
 10
696.8120665326
 20
-27.9579492738
 30
0.0
 11
696.8120665326
 21
112.0420513222
 31
0.0
  0
LINE
  5
C6
330
1F
100
AcDbEntity
  8
0
  6
Continuous
 62
     1
370
    25
100
AcDbLine
 10
619.791883327
 20
112.0420513222
 30
0.0
 11
619.791883327
 21
224.6585679719
 31
0.0
  0
LINE
  5
C7
330
1F
100
AcDbEntity
  8
0
  6
Continuous
 62
     1
370
    25
100
AcDbLine
 10
619.791883327
 20
-0.5744653275
 30
0.0
 11
619.791883327
 21
112.0420513222
 31
0.0
  0
LINE
  5
C8
330
1F
100
AcDbEntity
  8
0
  6
Continuous
 62
     1
370
    25
100
AcDbLine
 10
619.1192113831
 20
112.0420513222
 30
0.0
 11
619.1192113831
 21
224.542048342
 31
0.0
  0
LINE
  5
C9
330
1F
100
AcDbEntity
  8
0
  6
Continuous
 62
     1
370
    25
100
AcDbLine
 10
619.1192113831
 20
-0.4579456975
 30
0.0
 11
619.1192113831
 21
112.0420513222
 31
0.0
  0
ARC
  5
CA
330
1F
100
AcDbEntity
  8
0
  6
Continuous
 62
     7
370
    25
100
AcDbCircle
 10
-7.3189670488
 20
-350.7647963664
 30
0.0
 40
2.000000000000022
100
AcDbArc
 50
160.3461759419
 51
180.0
  0
ARC
  5
CB
330
1F
100
AcDbEntity
  8
0
  6
Continuous
 62
     7
370
    25
100
AcDbCircle
 10
268.6810329512
 20
-350.7647963664
 30
0.0
 40
2.000000000000012
100
AcDbArc
 50
0.0
 51
19.6538240581
  0
LINE
  5
CC
330
1F
100
AcDbEntity
  8
0
  6
Continuous
 62
     7
370
    25
100
AcDbLine
 10
-9.3189676449
 20
-350.7647977196
 30
0.0
 11
-9.3189676449
 21
-489.4183740936
 31
0.0
  0
LINE
  5
CD
330
1F
100
AcDbEntity
  8
0
  6
Continuous
 62
     7
370
    25
100
AcDbLine
 10
270.6810335472
 20
-489.4183740936
 30
0.0
 11
270.6810335472
 21
-350.7647977196
 31
0.0
  0
LINE
  5
CE
330
1F
100
AcDbEntity
  8
0
  6
Continuous
 62
     7
370
    25
100
AcDbLine
 10
270.5645213678
 20
-350.0921220504
 30
0.0
 11
243.2975496009
 21
-273.744614514
 31
0.0
  0
LINE
  5
CF
330
1F
100
AcDbEntity
  8
0
  6
Continuous
 62
     7
370
    25
100
AcDbLine
 10
18.0645163014
 20
-273.744614514
 30
0.0
 11
-9.2024554655
 21
-350.0921220504
 31
0.0
  0
ARC
  5
D0
330
1F
100
AcDbEntity
  8
0
  6
Continuous
 62
     7
370
    25
100
AcDbCircle
 10
16.1810329512
 20
-273.0719413685
 30
0.0
 40
1.999999999999986
100
AcDbArc
 50
340.3461759419
 51
0.0
  0
ARC
  5
D1
330
1F
100
AcDbEntity
  8
0
  6
Continuous
 62
     7
370
    25
100
AcDbCircle
 10
245.1810329512
 20
-273.0719413685
 30
0.0
 40
2.0
100
AcDbArc
 50
180.0
 51
199.6538240581
  0
LINE
  5
D2
330
1F
100
AcDbEntity
  8
0
  6
Continuous
 62
     7
370
    25
100
AcDbLine
 10
18.1810359314
 20
-153.4183637224
 30
0.0
 11
18.1810359314
 21
-273.07194257
 31
0.0
  0
LINE
  5
D3
330
1F
100
AcDbEntity
  8
0
  6
Continuous
 62
     7
370
    25
100
AcDbLine
 10
243.1810299709
 20
-273.07194257
 30
0.0
 11
243.1810299709
 21
-153.4183637224
 31
0.0
  0
LINE
  5
D4
330
1F
100
AcDbEntity
  8
0
  6
Continuous
 62
     7
370
    25
100
AcDbLine
 10
-9.3189676449
 20
-489.4183740936
 30
0.0
 11
270.6810335472
 21
-489.4183740936
 31
0.0
  0
LINE
  5
D5
330
1F
100
AcDbEntity
  8
0
  6
Continuous
 62
     7
370
    25
100
AcDbLine
 10
18.1810359314
 20
-153.4183637224
 30
0.0
 11
243.1810299709
 21
-153.4183637224
 31
0.0
  0
LINE
  5
D6
330
1F
100
AcDbEntity
  8
0
  6
Continuous
 62
     1
370
    25
100
AcDbLine
 10
-9.2024554655
 20
-350.0921220504
 30
0.0
 11
270.5645213678
 21
-350.0921220504
 31
0.0
  0
LINE
  5
D7
330
1F
100
AcDbEntity
  8
0
  6
Continuous
 62
     1
370
    25
100
AcDbLine
 10
-9.3189676449
 20
-350.7647977196
 30
0.0
 11
270.6810335472
 21
-350.7647977196
 31
0.0
  0
LINE
  5
D8
330
1F
100
AcDbEntity
  8
0
  6
Continuous
 62
     1
370
    25
100
AcDbLine
 10
18.0645163014
 20
-273.744614514
 30
0.0
 11
243.2975496009
 21
-273.744614514
 31
0.0
  0
LINE
  5
D9
330
1F
100
AcDbEntity
  8
0
  6
Continuous
 62
     1
370
    25
100
AcDbLine
 10
18.1810359314
 20
-273.07194257
 30
0.0
 11
243.1810299709
 21
-273.07194257
 31
0.0
  0
LINE
  5
DA
330
1F
100
AcDbEntity
  8
0
  6
Continuous
 62
     7
370
    25
100
AcDbLine
 10
698.5822824053
 20
-232.7619901032
 30
0.0
 11
600.5393983155
 21
-176.1630378606
 31
0.0
  0
LINE
  5
DB
330
1F
100
AcDbEntity
  8
0
  6
Continuous
 62
     7
370
    25
100
AcDbLine
 10
460.5507799391
 20
-418.6567182558
 30
0.0
 11
558.593664029
 21
-475.2556704983
 31
0.0
  0
LINE
  5
DC
330
1F
100
AcDbEntity
  8
0
  6
Continuous
 62
     7
370
    25
100
AcDbLine
 10
707.1801631104
 20
-239.130584557
 30
0.0
 11
706.9994005455
 21
-238.9691466867
 31
0.0
  0
SPLINE
  5
DD
330
1F
100
AcDbEntity
  8
0
  6
Continuous
 62
     7
370
    25
100
AcDbSpline
210
0.0
220
0.0
230
1.0
 70
     8
 71
     3
 72
     9
 73
     5
 74
     0
 42
0.000000001
 43
0.00000001
 40
0.0
 40
0.0
 40
0.0
 40
0.0
 40
0.6562959943107488
 40
1.0
 40
1.0
 40
1.0
 40
1.0
 10
568.020731294924
 20
-479.3925258131433
 30
0.0
 10
568.4311085672554
 20
-479.5427574339839
 30
0.0
 10
569.0564015385502
 20
-479.7716657651986
 30
0.0
 10
569.7146061501953
 20
-479.9282215972841
 30
0.0
 10
569.9408337117809
 20
-479.9820304638859
 30
0.0
  0
LINE
  5
DE
330
1F
100
AcDbEntity
  8
0
  6
Continuous
 62
     7
370
    25
100
AcDbLine
 10
579.0606109394
 20
-481.7002558744
 30
0.0
 11
642.7933551393
 21
-488.028730245
 31
0.0
  0
LINE
  5
DF
330
1F
100
AcDbEntity
  8
0
  6
Continuous
 62
     7
370
    25
100
AcDbLine
 10
751.7501682853
 20
-299.2895442312
 30
0.0
 11
714.3982982408
 21
-247.2631126006
 31
0.0
  0
LINE
  5
E0
330
1F
100
AcDbEntity
  8
0
  6
Continuous
 62
     7
370
    25
100
AcDbLine
 10
824.3784026243
 20
-337.1359456118
 30
0.0
 11
746.7464180389
 21
-292.3199548459
 31
0.0
  0
LINE
  5
E1
330
1F
100
AcDbEntity
  8
0
  6
Continuous
 62
     7
370
    25
100
AcDbLine
 10
634.2555626694
 20
-487.1809537782
 30
0.0
 11
711.8875472548
 21
-531.9969445442
 31
0.0
  0
LWPOLYLINE
  5
E2
330
1F
100
AcDbEntity
  8
0
  6
Continuous
 62
     7
370
    25
100
AcDbPolyline
 90
      126
 70
   128
 43
0.0
 10
431.5501393397
 20
-354.5584461291
 10
431.6751785025
 20
-348.7425475569
 10
432.0499588162
 20
-342.7969853586
 10
432.6735635868
 20
-336.7367614799
 10
433.544391234
 20
-330.5772002384
 10
434.6602501217
 20
-324.3338544156
 10
436.0183269479
 20
-318.0224957478
 10
437.6151762076
 20
-311.6590738604
 10
439.4467834134
 20
-305.259649353
 10
441.5085124122
 20
-298.8403983572
 10
443.7951527996
 20
-292.417533453
 10
446.3009357259
 20
-286.007282377
 10
449.0195233587
 20
-279.6258302268
 10
451.94405103
 20
-273.2893072971
 10
455.0671325047
 20
-267.0137130341
 10
458.3808757853
 20
-260.8149008275
 10
461.8769147224
 20
-254.7085293443
 10
465.546414283
 20
-248.7100290683
 10
469.3801074286
 20
-242.834544509
 10
473.3683109209
 20
-237.0969250771
 10
477.5009411262
 20
-231.5116612073
 10
481.7675719681
 20
-226.0928630707
 10
486.1574138533
 20
-220.8542119032
 10
490.6593874289
 20
-215.8089600124
 10
495.2621130459
 20
-210.9698212701
 10
499.9539687107
 20
-206.3490532476
 10
504.7230979881
 20
-201.9583066448
 10
509.5574560991
 20
-197.8086716827
 10
514.4448309942
 20
-193.9106537707
 10
519.3728775981
 20
-190.274068566
 10
524.3291448098
 20
-186.9081237257
 10
529.3011146861
 20
-183.821323282
 10
534.2762268074
 20
-181.0214535769
 10
539.241914169
 20
-178.5155868765
 10
544.1856321566
 20
-176.3100524773
 10
549.0948931199
 20
-174.410441081
 10
553.9572946902
 20
-172.8215276113
 10
558.7605576465
 20
-171.5473345251
 10
563.4925423795
 20
-170.5910858063
 10
568.1413002576
 20
-169.9551894802
 10
572.6950881151
 20
-169.6412535845
 10
577.1424024966
 20
-169.6500724839
 10
581.4720059985
 20
-169.981623831
 10
585.6729615137
 20
-170.6350731322
 10
589.7346638414
 20
-171.6087615832
 10
593.6468449556
 20
-172.9002395302
 10
597.3996266888
 20
-174.5062360557
 10
600.983526
 20
-176.4226985237
 10
604.3894971219
 20
-178.6447864996
 10
607.6089262922
 20
-181.1668869588
 10
610.6336844377
 20
-183.9826264597
 10
613.4561324419
 20
-187.0848924364
 10
616.0691422192
 20
-190.4658453687
 10
618.4661125193
 20
-194.1169522435
 10
620.6409847329
 20
-198.0289835146
 10
622.5882639645
 20
-202.1920617744
 10
624.3030401063
 20
-206.5956678394
 10
625.7809720329
 20
-211.2286772512
 10
627.0183297482
 20
-216.0793906986
 10
628.0119838487
 20
-221.1355507471
 10
628.7594371336
 20
-226.3843844277
 10
629.2587824581
 20
-231.8126382141
 10
629.50877649
 20
-237.4065926688
 10
629.50877649
 20
-243.1521221333
 10
629.2587824581
 20
-249.0347135535
 10
628.7594371336
 20
-255.0394991797
 10
628.0119838487
 20
-261.1513240537
 10
627.0183297482
 20
-267.3547327068
 10
625.7809720329
 20
-273.6340689632
 10
624.3030401063
 20
-279.973462256
 10
622.5882639645
 20
-286.3569067124
 10
620.6409847329
 20
-292.768265717
 10
618.4661125193
 20
-299.1913509966
 10
616.0691422192
 20
-305.6099408724
 10
613.4561324419
 20
-312.0078106766
 10
610.6336844377
 20
-318.368805755
 10
607.6089262922
 20
-324.6768566747
 10
604.3894971219
 20
-330.9160309339
 10
600.983526
 20
-337.0705694624
 10
597.3996266888
 20
-343.1249139979
 10
593.6468449556
 20
-349.0637800848
 10
589.7346638414
 20
-354.8721662012
 10
585.6729615137
 20
-360.5353963402
 10
581.4720059985
 20
-366.0391656372
 10
577.1424024966
 20
-371.369570784
 10
572.6950881151
 20
-376.5131495718
 10
568.1413002576
 20
-381.4569052232
 10
563.4925423795
 20
-386.1883504961
 10
558.7605576465
 20
-390.6955350576
 10
553.9572946902
 20
-394.9670713366
 10
549.0948931199
 20
-398.9921672224
 10
544.1856321566
 20
-402.7606678852
 10
539.241914169
 20
-406.2630287784
 10
534.2762268074
 20
-409.4904226699
 10
529.3011146861
 20
-412.4346951526
 10
524.3291448098
 20
-415.0884089378
 10
519.3728775981
 20
-417.4448484157
 10
514.4448309942
 20
-419.498064709
 10
509.5574560991
 20
-421.2428897397
 10
504.7230979881
 20
-422.6748858441
 10
499.9539687107
 20
-423.7904586997
 10
495.2621130459
 20
-424.5867919216
 10
490.6593874289
 20
-425.0618470609
 10
486.1574138533
 20
-425.2144632208
 10
481.7675719681
 20
-425.0442156098
 10
477.5009411262
 20
-424.5515645872
 10
473.3683109209
 20
-423.7377339898
 10
469.3801074286
 20
-422.6047962966
 10
465.546414283
 20
-421.1555996271
 10
461.8769147224
 20
-419.3938133627
 10
458.3808757853
 20
-417.3238825182
 10
455.0671325047
 20
-414.9510368655
 10
451.94405103
 20
-412.2812757208
 10
449.0195233587
 20
-409.3213405677
 10
446.3009357259
 20
-406.0787028868
 10
443.7951527996
 20
-402.5615671958
 10
441.5085124122
 20
-398.7788010868
 10
439.4467834134
 20
-394.7399717243
 10
437.6151762076
 20
-390.4552758835
 10
436.0183269479
 20
-385.9355369075
 10
434.6602501217
 20
-381.1921803673
 10
433.544391234
 20
-376.2371777931
 10
432.6735635868
 20
-371.0830527518
 10
432.0499588162
 20
-365.7428276156
 10
431.6751785025
 20
-360.2299775569
 10
431.5501393397
 20
-354.5584461291
  0
LWPOLYLINE
  5
E3
330
1F
100
AcDbEntity
  8
0
  6
Continuous
 62
     7
370
    25
100
AcDbPolyline
 90
      118
 70
   128
 43
0.0
 10
443.288110407
 20
-347.7822596672
 10
443.4139029447
 20
-342.3011230141
 10
443.7909170414
 20
-336.690553294
 10
444.4180674156
 20
-330.9667258311
 10
445.2935417528
 20
-325.1461474431
 10
446.414821779
 20
-319.2455959865
 10
447.778667455
 20
-313.2820887957
 10
449.3811485873
 20
-307.2728180471
 10
451.217650096
 20
-301.2351096941
 10
453.2828720148
 20
-295.1863717559
 10
455.5708611014
 20
-289.1440456507
 10
458.075021374
 20
-283.1255484018
 10
460.7881299165
 20
-277.1482422201
 10
463.7023684884
 20
-271.2293493356
 10
466.8093287935
 20
-265.3859459139
 10
470.1000546265
 20
-259.6348768886
 10
473.5650629464
 20
-253.992719461
 10
477.1943596818
 20
-248.4757435572
 10
480.9774766092
 20
-243.0998601206
 10
484.9035134999
 20
-237.8805663621
 10
488.9611433884
 20
-232.8329123003
 10
493.1386731584
 20
-227.9714475351
 10
497.4240540795
 20
-223.3101969134
 10
501.8049318568
 20
-218.8625890507
 10
506.2686756066
 20
-214.6414578543
 10
510.8024121009
 20
-210.6589680018
 10
515.3930744996
 20
-206.9265989753
 10
520.0274227653
 20
-203.455121109
 10
524.692096347
 20
-200.254540841
 10
529.3736462019
 20
-197.3340822272
 10
534.0585732377
 20
-194.7021708328
 10
538.7333702949
 20
-192.3663851617
 10
543.3845575437
 20
-190.3334727244
 10
547.99872603
 20
-188.6092883975
 10
552.5625711793
 20
-187.1988055004
 10
557.0629352721
 20
-186.1060851914
 10
561.4868397134
 20
-185.3342882572
 10
565.8215324472
 20
-184.8856294903
 10
570.0545116647
 20
-184.7614126718
 10
574.1735784875
 20
-184.9619819072
 10
578.1668501383
 20
-185.48677486
 10
582.0228178933
 20
-186.3342710453
 10
585.730360253
 20
-187.5020207291
 10
589.2787929912
 20
-188.9866707884
 10
592.6578744237
 20
-190.7839312515
 10
595.8578738969
 20
-192.8886148485
 10
598.8695612509
 20
-195.2946674286
 10
601.6842436983
 20
-197.9951466709
 10
604.2938185074
 20
-200.9822585913
 10
606.6907571974
 20
-204.2473970855
 10
608.8681476852
 20
-207.781150016
 10
610.8197153586
 20
-211.5733205076
 10
612.5398283451
 20
-215.6129847429
 10
614.0235291216
 20
-219.8884889235
 10
615.2665345146
 20
-224.3875101066
 10
616.2652725787
 20
-229.0970714184
 10
617.0168562548
 20
-234.0035952835
 10
617.5191202485
 20
-239.092935368
 10
617.7706104936
 20
-244.3504222063
 10
617.7706104936
 20
-249.7608905802
 10
617.5191202485
 20
-255.3087418749
 10
617.0168562548
 20
-260.9779836229
 10
616.2652725787
 20
-266.7522675296
 10
615.2665345146
 20
-272.6149472654
 10
614.0235291216
 20
-278.5491119274
 10
612.5398283451
 20
-284.5376605613
 10
610.8197153586
 20
-290.5633249776
 10
608.8681476852
 20
-296.6087275436
 10
606.6907571974
 20
-302.6564420201
 10
604.2938185074
 20
-308.689027019
 10
601.6842436983
 20
-314.6890898816
 10
598.8695612509
 20
-320.6393323045
 10
595.8578738969
 20
-326.5226050889
 10
592.6578744237
 20
-332.3219294349
 10
589.2787929912
 20
-338.0205942763
 10
585.730360253
 20
-343.6021775695
 10
582.0228178933
 20
-349.0505645458
 10
578.1668501383
 20
-354.3500663375
 10
574.1735784875
 20
-359.4853926003
 10
570.0545116647
 20
-364.4417351597
 10
565.8215324472
 20
-369.2048121168
 10
561.4868397134
 20
-373.7608830517
 10
557.0629352721
 20
-378.0968174644
 10
552.5625711793
 20
-382.2001069367
 10
547.99872603
 20
-386.0589274887
 10
543.3845575437
 20
-389.662148699
 10
538.7333702949
 20
-392.9993827525
 10
534.0585732377
 20
-396.0610028766
 10
529.3736462019
 20
-398.8381931017
 10
524.692096347
 20
-401.3229368974
 10
520.0274227653
 20
-403.5080741086
 10
515.3930744996
 20
-405.387300857
 10
510.8024121009
 20
-406.9551978167
 10
506.2686756066
 20
-408.2072487001
 10
501.8049318568
 20
-409.1398463372
 10
497.4240540795
 20
-409.7502922924
 10
493.1386731584
 20
-410.0368371654
 10
488.9611433884
 20
-409.9986456063
 10
484.9035134999
 20
-409.6358312942
 10
480.9774766092
 20
-408.949443244
 10
477.1943596818
 20
-407.9414536386
 10
473.5650629464
 20
-406.6147745526
 10
470.1000546265
 20
-404.9732305756
 10
466.8093287935
 20
-403.0215527248
 10
463.7023684884
 20
-400.7653693152
 10
460.7881299165
 20
-398.211184666
 10
458.075021374
 20
-395.3663669306
 10
455.5708611014
 20
-392.2391115906
 10
453.2828720148
 20
-388.8384414557
 10
451.217650096
 20
-385.1741579904
 10
449.3811485873
 20
-381.2568291458
 10
447.778667455
 20
-377.0977437302
 10
446.414821779
 20
-372.7088992393
 10
445.2935417528
 20
-368.1029501444
 10
444.4180674156
 20
-363.2931729107
 10
443.7909170414
 20
-358.2934378572
 10
443.4139029447
 20
-353.1181593477
 10
443.288110407
 20
-347.7822596672
  0
ARC
  5
E4
330
1F
100
AcDbEntity
  8
0
  6
Continuous
 62
     7
370
    25
100
AcDbCircle
 10
674.8999369954
 20
-273.7250384779
 30
0.0
 40
47.31622149186475
100
AcDbArc
 50
47.6237753112
 51
59.9661083167
  0
ARC
  5
E5
330
1F
100
AcDbEntity
  8
0
  6
Continuous
 62
     7
370
    25
100
AcDbCircle
 10
582.2455504745
 20
-434.2111813219
 30
0.0
 40
47.37152967962975
100
AcDbArc
 50
240.0473035752
 51
252.1825592063
  0
ARC
  5
E6
330
1F
100
AcDbEntity
  8
0
  6
Continuous
 62
     7
370
    25
100
AcDbCircle
 10
666.7590564042
 20
-281.9233993347
 30
0.0
 40
58.876152010734
100
AcDbArc
 50
20.861435079
 51
46.378210686
  0
ARC
  5
E7
330
1F
100
AcDbEntity
  8
0
  6
Continuous
 62
     7
370
    25
100
AcDbCircle
 10
585.1899231075
 20
-423.5358684203
 30
0.0
 40
58.47504466197018
100
AcDbArc
 50
255.0973814061
 51
279.6895325149
  0
ARC
  5
E8
330
1F
100
AcDbEntity
  8
0
  6
Continuous
 62
     7
370
    25
100
AcDbCircle
 10
712.2548872169
 20
-327.5190188729
 30
0.0
 40
48.54668335951833
100
AcDbArc
 50
26.2801070863
 51
35.5555021418
  0
ARC
  5
E9
330
1F
100
AcDbEntity
  8
0
  6
Continuous
 62
     7
370
    25
100
AcDbCircle
 10
647.5257440135
 20
-439.0759731074
 30
0.0
 40
49.18097127776172
100
AcDbArc
 50
264.4782284424
 51
275.8392197584
  0
LWPOLYLINE
  5
EA
330
1F
100
AcDbEntity
  8
0
  6
Continuous
 62
     7
370
    25
100
AcDbPolyline
 90
       58
 70
   128
 43
0.0
 10
824.3784026243
 20
-337.1359456118
 10
824.3829755574
 20
-337.1385863681
 10
827.4484475585
 20
-339.1131968946
 10
830.327288046
 20
-341.3881332068
 10
833.0104459843
 20
-343.9562461043
 10
835.4894709301
 20
-346.8094525945
 10
837.7565709849
 20
-349.9387754424
 10
839.8046075263
 20
-353.3343675045
 10
841.627142623
 20
-356.9855421523
 10
843.218433767
 20
-360.8808188991
 10
844.5734812884
 20
-365.007937093
 10
845.6880178188
 20
-369.3539121902
 10
846.558534633
 20
-373.9050707387
 10
847.1822974543
 20
-378.6470914447
 10
847.5573411857
 20
-383.5650561234
 10
847.6824857157
 20
-388.6434900045
 10
847.5573411857
 20
-393.8664126844
 10
847.1822974543
 20
-399.2173936384
 10
846.558534633
 20
-404.6795955684
 10
845.6880178188
 20
-410.2358314369
 10
844.5734812884
 20
-415.8686230214
 10
843.218433767
 20
-421.5602457821
 10
841.627142623
 20
-427.2927881765
 10
839.8046075263
 20
-433.0482170566
 10
837.7565709849
 20
-438.8084217772
 10
835.4894709301
 20
-444.5552826325
 10
833.0104459843
 20
-450.2707104011
 10
830.327288046
 20
-455.9367315133
 10
827.4484475585
 20
-461.5355063025
 10
824.3829755574
 20
-467.049435465
 10
821.1405184027
 20
-472.4611600589
 10
817.7312861684
 20
-477.7536466735
 10
814.1659946908
 20
-482.9102573864
 10
810.4558682025
 20
-487.914754326
 10
806.6125761121
 20
-492.7514030893
 10
802.6482145652
 20
-497.4049773023
 10
798.5752563948
 20
-501.8608422666
 10
794.4065142427
 20
-506.104970165
 10
790.1551049986
 20
-510.1240153441
 10
785.8344063355
 20
-513.9053272381
 10
781.4580132463
 20
-517.4370058784
 10
777.0396945796
 20
-520.7079452359
 10
772.5933515513
 20
-523.7078510883
 10
768.1329749395
 20
-526.4272839817
 10
763.6725983278
 20
-528.8576923068
 10
759.2262552995
 20
-530.9914248423
 10
754.8079366327
 20
-532.8217676336
 10
750.4315435435
 20
-534.3429649006
 10
746.1108448804
 20
-535.5502254983
 10
741.8594356363
 20
-536.4397529505
 10
737.6906934843
 20
-537.0087522905
 10
733.6177353138
 20
-537.2554247335
 10
729.653373767
 20
-537.179004935
 10
725.8100816766
 20
-536.7797267672
 10
722.0999551883
 20
-536.0588506915
 10
718.5346637107
 20
-535.0186378987
 10
715.1254314764
 20
-533.6623670371
 10
711.8875472548
 20
-531.9969445442
  0
LWPOLYLINE
  5
EB
330
1F
100
AcDbEntity
  8
0
  6
Continuous
 62
     1
370
    25
100
AcDbPolyline
 90
       59
 70
   128
 43
0.0
 10
706.7908763783
 20
-238.7708856267
 10
708.6765685275
 20
-240.5815787022
 10
711.4990165318
 20
-243.6838446789
 10
714.112026309
 20
-247.0647976112
 10
716.5089966092
 20
-250.715904486
 10
718.6838688228
 20
-254.6279357571
 10
720.6311480544
 20
-258.7910140169
 10
722.3459241962
 20
-263.1946200819
 10
723.8238561228
 20
-267.8276294937
 10
725.0612138381
 20
-272.6783429411
 10
726.0548679386
 20
-277.7345029896
 10
726.8023212235
 20
-282.9833366702
 10
727.3016665479
 20
-288.4115904566
 10
727.5516605799
 20
-294.0055449113
 10
727.5516605799
 20
-299.7510743758
 10
727.3016665479
 20
-305.633665796
 10
726.8023212235
 20
-311.6384514222
 10
726.0548679386
 20
-317.7502762962
 10
725.0612138381
 20
-323.9536849493
 10
723.8238561228
 20
-330.2330212057
 10
722.3459241962
 20
-336.5724144986
 10
720.6311480544
 20
-342.9558589549
 10
718.6838688228
 20
-349.3672179595
 10
716.5089966092
 20
-355.7903032391
 10
714.112026309
 20
-362.2088931149
 10
711.4990165318
 20
-368.6067629191
 10
708.6765685275
 20
-374.9677579975
 10
705.6518103821
 20
-381.2758089172
 10
702.4323812117
 20
-387.5149831764
 10
699.0264100899
 20
-393.6695217049
 10
695.4425107787
 20
-399.7238662404
 10
691.6897290455
 20
-405.6627323273
 10
687.7775479312
 20
-411.4711184437
 10
683.7158456035
 20
-417.1343485827
 10
679.5148900883
 20
-422.6381178797
 10
675.1852865864
 20
-427.9685230265
 10
670.737972205
 20
-433.1121018143
 10
666.1841843475
 20
-438.0558574657
 10
661.5354264694
 20
-442.7873027386
 10
656.8034417364
 20
-447.2944873001
 10
652.00017878
 20
-451.5660235791
 10
647.1377772098
 20
-455.5911194649
 10
642.2285162465
 20
-459.3596201277
 10
637.2847982589
 20
-462.8619810209
 10
632.3191108973
 20
-466.0893749124
 10
627.3439987759
 20
-469.0336473951
 10
622.3720288997
 20
-471.6873611803
 10
617.415761688
 20
-474.0438006582
 10
612.487715084
 20
-476.0970169515
 10
607.6003401889
 20
-477.8418419822
 10
602.765982078
 20
-479.2738380866
 10
597.9968528006
 20
-480.3894109422
 10
593.3049971357
 20
-481.1857441641
 10
588.7022715187
 20
-481.6607993034
 10
584.2002979431
 20
-481.8134154633
 10
579.810456058
 20
-481.6431678523
 10
575.5438252161
 20
-481.1505168297
 10
571.4111950107
 20
-480.3366862323
 10
567.7505673618
 20
-479.3105969361
  0
LWPOLYLINE
  5
EC
330
1F
100
AcDbEntity
  8
0
  6
Continuous
 62
     1
370
    25
100
AcDbPolyline
 90
       26
 70
   128
 43
0.0
 10
541.6744122869
 20
-390.9232400862
 10
542.0935100117
 20
-387.3535586144
 10
542.968984349
 20
-381.5329802264
 10
544.0902643752
 20
-375.6324287698
 10
545.4541100512
 20
-369.668921579
 10
547.0565911835
 20
-363.6596508303
 10
548.8930926921
 20
-357.6219424773
 10
550.958314611
 20
-351.5732045392
 10
553.2463036976
 20
-345.530878434
 10
555.7504639702
 20
-339.5123811851
 10
558.4635725127
 20
-333.5350750034
 10
561.3778110846
 20
-327.6161821189
 10
564.4847713897
 20
-321.7727786972
 10
567.7754972227
 20
-316.0217096719
 10
571.2405055426
 20
-310.3795522443
 10
574.869802278
 20
-304.8625763405
 10
578.6529192054
 20
-299.4866929039
 10
582.5789560961
 20
-294.2673991454
 10
586.6365859846
 20
-289.2197450836
 10
590.8141157545
 20
-284.3582803184
 10
595.0994966757
 20
-279.6970296967
 10
599.480374453
 20
-275.249421834
 10
603.9441182028
 20
-271.0282906376
 10
608.4778546971
 20
-267.0458007851
 10
613.0685170958
 20
-263.3134317586
 10
617.0912138323
 20
-260.2833516714
  0
LWPOLYLINE
  5
ED
330
1F
100
AcDbEntity
  8
0
  6
Continuous
 62
     1
370
    25
100
AcDbPolyline
 90
       47
 70
   128
 43
0.0
 10
721.7755456269
 20
-260.9570646719
 10
722.7435428334
 20
-263.5447917075
 10
724.2202419647
 20
-268.1739469777
 10
725.4565776189
 20
-273.0206177085
 10
726.4494098558
 20
-278.0725692782
 10
727.196230938
 20
-283.3170393634
 10
727.6951653307
 20
-288.7407729199
 10
727.9449486284
 20
-294.3300733219
 10
727.9449486284
 20
-300.0708209957
 10
727.6951653307
 20
-305.9485150546
 10
727.196230938
 20
-311.9483059991
 10
726.4494098558
 20
-318.0550373521
 10
725.4565776189
 20
-324.2532886229
 10
724.2202419647
 20
-330.5274021161
 10
722.7435428334
 20
-336.8615179121
 10
721.0301996844
 20
-343.2396453464
 10
719.0845431065
 20
-349.6456660538
 10
716.911477939
 20
-356.0634100116
 10
714.5165043458
 20
-362.4766555415
 10
711.9056703996
 20
-368.8691992678
 10
709.0855668138
 20
-375.2249047864
 10
706.0633269426
 20
-381.5277057065
 10
702.8465740971
 20
-387.7616908181
 10
699.4434426192
 20
-393.9110980095
 10
695.8625251975
 20
-399.9604055185
 10
692.1128675995
 20
-405.8943288898
 10
688.2039370609
 20
-411.6978878928
 10
684.1456170178
 20
-417.3564034792
 10
679.948159691
 20
-422.8555920761
 10
675.6221597447
 20
-428.1815625414
 10
671.1785463834
 20
-433.3208572285
 10
666.628549108
 20
-438.2605021732
 10
661.9836608375
 20
-442.9880101324
 10
657.2556115665
 20
-447.4914383765
 10
652.4563472924
 20
-451.7594251899
 10
647.5979918195
 20
-455.7811754186
 10
642.6928177835
 20
-459.5465258672
 10
637.7532137234
 20
-463.0459764747
 10
632.7916590579
 20
-466.2706925938
 10
627.8206875351
 20
-469.2125139227
 10
622.8528559526
 20
-471.8640090655
 10
617.9007125466
 20
-474.2184816128
 10
612.9767686749
 20
-476.2699986566
 10
608.0934609507
 20
-478.0133639802
 10
603.2631252296
 20
-479.4441817446
 10
598.4979656585
 20
-480.558825687
 10
595.0318167395
 20
-481.1767217967
  0
LWPOLYLINE
  5
EE
330
1F
100
AcDbEntity
  8
0
  6
Continuous
 62
     1
370
    25
100
AcDbPolyline
 90
       45
 70
   128
 43
0.0
 10
755.7837955435
 20
-306.0244938699
 10
756.6197519419
 20
-307.7875290961
 10
758.2126920814
 20
-311.6868394928
 10
759.5691409855
 20
-315.8182331406
 10
760.6848312859
 20
-320.1687087654
 10
761.5562542573
 20
-324.724579227
 10
762.180659818
 20
-329.4715125836
 10
762.5560934079
 20
-334.3945701188
 10
762.6813696467
 20
-339.4782626133
 10
762.5560934079
 20
-344.7065959743
 10
762.180659818
 20
-350.0631199057
 10
761.5562542573
 20
-355.5309765774
 10
760.6848312859
 20
-361.0929705859
 10
759.5691409855
 20
-366.7315948126
 10
758.2126920814
 20
-372.4291110292
 10
756.6197519419
 20
-378.167590963
 10
754.7953307737
 20
-383.9289816953
 10
752.7451710849
 20
-389.6951543294
 10
750.4757266116
 20
-395.4479617845
 10
747.994130708
 20
-401.1693148388
 10
745.3081963461
 20
-406.8411973384
 10
742.4263687007
 20
-412.445778742
 10
739.3577251493
 20
-417.9654141203
 10
736.1119120517
 20
-423.3827384481
 10
732.6991447506
 20
-428.6807152731
 10
729.1301654237
 20
-433.8426610475
 10
725.4161930355
 20
-438.8523470251
 10
721.5689233363
 20
-443.6939992609
 10
717.6004551058
 20
-448.3523959443
 10
713.5232769822
 20
-452.8128750014
 10
709.3502174124
 20
-457.0613994911
 10
705.0944051397
 20
-461.0846047496
 10
700.7692323252
 20
-464.8698318472
 10
696.3883058156
 20
-468.4051739723
 10
691.9654115816
 20
-471.6794969604
 10
687.5144633516
 20
-474.6825115331
 10
683.0494670501
 20
-477.4047634092
 10
678.5844707486
 20
-479.8376865318
 10
674.1335225185
 20
-481.9736273997
 10
669.7106282845
 20
-483.805869398
 10
665.329701775
 20
-485.3286373559
 10
661.0045289605
 20
-486.5371484952
 10
656.7487166878
 20
-487.4275994967
 10
652.575657118
 20
-487.9971870299
 10
652.5292824137
 20
-488.0017591441
  0
LWPOLYLINE
  5
EF
330
1F
100
AcDbEntity
  8
0
  6
Continuous
 62
     1
370
    25
100
AcDbPolyline
 90
       26
 70
   128
 43
0.0
 10
543.2642098519
 20
-389.7522023009
 10
543.485944422
 20
-387.9608158834
 10
544.3593535637
 20
-382.1539773451
 10
545.4779836067
 20
-376.2673573199
 10
546.8386103172
 20
-370.3179244743
 10
548.4373140382
 20
-364.3228375251
 10
550.2694796898
 20
-358.2993798398
 10
552.3298231109
 20
-352.264922937
 10
554.6124121325
 20
-346.2368595671
 10
557.1106613097
 20
-340.2325672104
 10
559.8173635312
 20
-334.2693746188
 10
562.7247216301
 20
-328.3644553547
 10
565.8243483835
 20
-322.5348429999
 10
569.1073086597
 20
-316.7973459876
 10
572.5641352226
 20
-311.1685080603
 10
576.1848656111
 20
-305.6645565611
 10
579.9590526749
 20
-300.3013659332
 10
583.8758225273
 20
-295.0943938458
 10
587.9238745445
 20
-290.058650776
 10
592.0915419519
 20
-285.2086650332
 10
596.3668076293
 20
-280.5584127976
 10
600.7373436237
 20
-276.1213074779
 10
605.1905506614
 20
-271.9101403986
 10
609.7135871245
 20
-267.9370458216
 10
614.2934125148
 20
-264.2134941059
 10
616.8721490017
 20
-262.2456930956
  0
LWPOLYLINE
  5
F0
330
1F
100
AcDbEntity
  8
0
  6
Continuous
 62
     1
370
    25
100
AcDbPolyline
 90
       51
 70
   128
 43
0.0
 10
750.193229457
 20
-297.1209265082
 10
750.8816139337
 20
-297.9663764046
 10
753.1487139885
 20
-301.0956992525
 10
755.1967505299
 20
-304.4912913146
 10
757.0192856266
 20
-308.1424659624
 10
758.6105767706
 20
-312.0377427092
 10
759.965624292
 20
-316.1648609031
 10
761.0801608224
 20
-320.5108360003
 10
761.9506776366
 20
-325.0619945487
 10
762.5744404578
 20
-329.8040152548
 10
762.9494841893
 20
-334.7219799334
 10
763.0746287193
 20
-339.8004138146
 10
762.9494841893
 20
-345.0233364945
 10
762.5744404578
 20
-350.3743174485
 10
761.9506776366
 20
-355.8365193785
 10
761.0801608224
 20
-361.392755247
 10
759.965624292
 20
-367.0255468315
 10
758.6105767706
 20
-372.7171695922
 10
757.0192856266
 20
-378.4497119866
 10
755.1967505299
 20
-384.2051408667
 10
753.1487139885
 20
-389.9653455873
 10
750.8816139337
 20
-395.7122064426
 10
748.4025889878
 20
-401.4276342112
 10
745.7194310496
 20
-407.0936553234
 10
742.840590562
 20
-412.6924301126
 10
739.7751185609
 20
-418.2063592751
 10
736.5326614062
 20
-423.618083869
 10
733.123429172
 20
-428.9105704836
 10
729.5581376944
 20
-434.0671811964
 10
725.8480112061
 20
-439.0716781361
 10
722.0047191157
 20
-443.9083268994
 10
718.0403575688
 20
-448.5619011124
 10
713.9673993984
 20
-453.0177660767
 10
709.7986572463
 20
-457.2618939751
 10
705.5472480022
 20
-461.2809391542
 10
701.2265493391
 20
-465.0622510482
 10
696.8501562499
 20
-468.5939296885
 10
692.4318375832
 20
-471.864869046
 10
687.9854945549
 20
-474.8647748984
 10
683.5251179431
 20
-477.5842077918
 10
679.0647413314
 20
-480.0146161169
 10
674.6183983031
 20
-482.1483486524
 10
670.2000796363
 20
-483.9786914437
 10
665.8236865471
 20
-485.4998887107
 10
661.502987884
 20
-486.7071493083
 10
657.2515786399
 20
-487.5966767606
 10
653.0828364879
 20
-488.1656761006
 10
649.0098783174
 20
-488.4123485436
 10
645.0455167705
 20
-488.3359287451
 10
641.2022246802
 20
-487.9366505773
 10
640.13678396
 20
-487.7649415058
  0
ENDSEC
  0
SECTION
  2
OBJECTS
  0
DICTIONARY
  5
C
330
0
100
AcDbDictionary
281
     1
  3
ACAD_GROUP
350
D
  3
ACAD_LAYOUT
350
1A
  3
ACAD_MLINESTYLE
350
17
  3
ACAD_PLOTSETTINGS
350
19
  3
ACAD_PLOTSTYLENAME
350
E
  3
ACAD_SCALELIST
350
47
  0
DICTIONARY
  5
D
102
{ACAD_REACTORS
330
C
102
}
330
C
100
AcDbDictionary
281
     1
  0
DICTIONARY
  5
1A
102
{ACAD_REACTORS
330
C
102
}
330
C
100
AcDbDictionary
281
     1
  3
Layout1
350
1E
  3
Layout2
350
26
  3
Model
350
22
  0
DICTIONARY
  5
17
102
{ACAD_REACTORS
330
C
102
}
330
C
100
AcDbDictionary
281
     1
  3
Standard
350
18
  0
DICTIONARY
  5
19
102
{ACAD_REACTORS
330
C
102
}
330
C
100
AcDbDictionary
281
     1
  0
ACDBDICTIONARYWDFLT
  5
E
102
{ACAD_REACTORS
330
C
102
}
330
C
100
AcDbDictionary
281
     1
  3
Normal
350
F
100
AcDbDictionaryWithDefault
340
F
  0
DICTIONARY
  5
47
102
{ACAD_REACTORS
330
C
102
}
330
C
100
AcDbDictionary
281
     1
  3
A0
350
48
  3
A1
350
49
  3
A2
350
4A
  3
A3
350
4B
  3
A4
350
4C
  3
A5
350
4D
  3
A6
350
4E
  3
A7
350
4F
  3
A8
350
50
  3
A9
350
51
  3
B0
350
52
  3
B1
350
53
  3
B2
350
54
  3
B3
350
55
  3
B4
350
56
  3
B5
350
57
  3
B6
350
58
  3
B7
350
59
  3
B8
350
5A
  3
B9
350
5B
  3
C0
350
5C
  3
C1
350
5D
  3
C2
350
5E
  3
C3
350
5F
  3
C4
350
60
  3
C5
350
61
  3
C6
350
62
  3
C7
350
63
  3
C8
350
64
  3
C9
350
65
  3
D0
350
66
  3
D1
350
67
  3
D2
350
68
  0
LAYOUT
  5
1E
102
{ACAD_REACTORS
330
1A
102
}
330
1A
100
AcDbPlotSettings
  1

  2
none_device
  4

  6

 40
0.0
 41
0.0
 42
0.0
 43
0.0
 44
0.0
 45
0.0
 46
0.0
 47
0.0
 48
0.0
 49
0.0
140
0.0
141
0.0
142
1.0
143
1.0
 70
   688
 72
     1
 73
     0
 74
     5
  7

 75
    16
147
1.0
148
0.0
149
0.0
100
AcDbLayout
  1
Layout1
 70
     1
 71
     1
 10
0.0
 20
0.0
 11
420.0
 21
297.0
 12
0.0
 22
0.0
 32
0.0
 14
1.0000000000E+20
 24
1.0000000000E+20
 34
1.0000000000E+20
 15
-1.0000000000E+20
 25
-1.0000000000E+20
 35
-1.0000000000E+20
146
0.0
 13
0.0
 23
0.0
 33
0.0
 16
1.0
 26
0.0
 36
0.0
 17
0.0
 27
1.0
 37
0.0
 76
     0
330
1B
  0
LAYOUT
  5
26
102
{ACAD_REACTORS
330
1A
102
}
330
1A
100
AcDbPlotSettings
  1

  2
none_device
  4

  6

 40
0.0
 41
0.0
 42
0.0
 43
0.0
 44
0.0
 45
0.0
 46
0.0
 47
0.0
 48
0.0
 49
0.0
140
0.0
141
0.0
142
1.0
143
1.0
 70
   688
 72
     1
 73
     0
 74
     5
  7

 75
    16
147
1.0
148
0.0
149
0.0
100
AcDbLayout
  1
Layout2
 70
     1
 71
     2
 10
0.0
 20
0.0
 11
0.0
 21
0.0
 12
0.0
 22
0.0
 32
0.0
 14
0.0
 24
0.0
 34
0.0
 15
0.0
 25
0.0
 35
0.0
146
0.0
 13
0.0
 23
0.0
 33
0.0
 16
1.0
 26
0.0
 36
0.0
 17
0.0
 27
1.0
 37
0.0
 76
     0
330
23
  0
LAYOUT
  5
22
102
{ACAD_REACTORS
330
1A
102
}
330
1A
100
AcDbPlotSettings
  1

  2
none_device
  4
Letter_(8.50_x_11.00_Inches)
  6

 40
6.35
 41
6.35
 42
6.35000508
 43
6.35000508
 44
215.9
 45
279.4
 46
0.0
 47
0.0
 48
0.0
 49
0.0
140
0.0
141
0.0
142
1.0
143
1.0
 70
  1712
 72
     1
 73
     0
 74
     0
  7

 75
     0
147
1.0
148
0.0
149
0.0
100
AcDbLayout
  1
Model
 70
     1
 71
     0
 10
0.0
 20
0.0
 11
279.4
 21
215.9
 12
0.0
 22
0.0
 32
0.0
 14
0.0
 24
0.0
 34
0.0
 15
279.4
 25
215.9
 35
0.0
146
0.0
 13
0.0
 23
0.0
 33
0.0
 16
1.0
 26
0.0
 36
0.0
 17
0.0
 27
1.0
 37
0.0
 76
     0
330
1F
331
29
  0
MLINESTYLE
  5
18
102
{ACAD_REACTORS
330
17
102
}
330
17
100
AcDbMlineStyle
  2
Standard
 70
     0
  3

 62
   256
 51
90.0
 52
90.0
 71
     2
 49
0.5
 62
   256
  6
BYLAYER
 49
-0.5
 62
   256
  6
BYLAYER
  0
ACDBPLACEHOLDER
  5
F
102
{ACAD_REACTORS
330
E
102
}
330
E
  0
SCALE
  5
48
102
{ACAD_REACTORS
330
47
102
}
330
47
100
AcDbScale
 70
     0
300
1:1
140
1.0
141
1.0
290
     1
  0
SCALE
  5
49
102
{ACAD_REACTORS
330
47
102
}
330
47
100
AcDbScale
 70
     0
300
1:2
140
1.0
141
2.0
290
     0
  0
SCALE
  5
4A
102
{ACAD_REACTORS
330
47
102
}
330
47
100
AcDbScale
 70
     0
300
1:4
140
1.0
141
4.0
290
     0
  0
SCALE
  5
4B
102
{ACAD_REACTORS
330
47
102
}
330
47
100
AcDbScale
 70
     0
300
1:5
140
1.0
141
5.0
290
     0
  0
SCALE
  5
4C
102
{ACAD_REACTORS
330
47
102
}
330
47
100
AcDbScale
 70
     0
300
1:8
140
1.0
141
8.0
290
     0
  0
SCALE
  5
4D
102
{ACAD_REACTORS
330
47
102
}
330
47
100
AcDbScale
 70
     0
300
1:10
140
1.0
141
10.0
290
     0
  0
SCALE
  5
4E
102
{ACAD_REACTORS
330
47
102
}
330
47
100
AcDbScale
 70
     0
300
1:16
140
1.0
141
16.0
290
     0
  0
SCALE
  5
4F
102
{ACAD_REACTORS
330
47
102
}
330
47
100
AcDbScale
 70
     0
300
1:20
140
1.0
141
20.0
290
     0
  0
SCALE
  5
50
102
{ACAD_REACTORS
330
47
102
}
330
47
100
AcDbScale
 70
     0
300
1:30
140
1.0
141
30.0
290
     0
  0
SCALE
  5
51
102
{ACAD_REACTORS
330
47
102
}
330
47
100
AcDbScale
 70
     0
300
1:40
140
1.0
141
40.0
290
     0
  0
SCALE
  5
52
102
{ACAD_REACTORS
330
47
102
}
330
47
100
AcDbScale
 70
     0
300
1:50
140
1.0
141
50.0
290
     0
  0
SCALE
  5
53
102
{ACAD_REACTORS
330
47
102
}
330
47
100
AcDbScale
 70
     0
300
1:100
140
1.0
141
100.0
290
     0
  0
SCALE
  5
54
102
{ACAD_REACTORS
330
47
102
}
330
47
100
AcDbScale
 70
     0
300
2:1
140
2.0
141
1.0
290
     0
  0
SCALE
  5
55
102
{ACAD_REACTORS
330
47
102
}
330
47
100
AcDbScale
 70
     0
300
4:1
140
4.0
141
1.0
290
     0
  0
SCALE
  5
56
102
{ACAD_REACTORS
330
47
102
}
330
47
100
AcDbScale
 70
     0
300
8:1
140
8.0
141
1.0
290
     0
  0
SCALE
  5
57
102
{ACAD_REACTORS
330
47
102
}
330
47
100
AcDbScale
 70
     0
300
10:1
140
10.0
141
1.0
290
     0
  0
SCALE
  5
58
102
{ACAD_REACTORS
330
47
102
}
330
47
100
AcDbScale
 70
     0
300
100:1
140
100.0
141
1.0
290
     0
  0
SCALE
  5
59
102
{ACAD_REACTORS
330
47
102
}
330
47
100
AcDbScale
 70
     0
300
1/128" = 1'-0"
140
0.0078125
141
12.0
290
     0
  0
SCALE
  5
5A
102
{ACAD_REACTORS
330
47
102
}
330
47
100
AcDbScale
 70
     0
300
1/64" = 1'-0"
140
0.015625
141
12.0
290
     0
  0
SCALE
  5
5B
102
{ACAD_REACTORS
330
47
102
}
330
47
100
AcDbScale
 70
     0
300
1/32" = 1'-0"
140
0.03125
141
12.0
290
     0
  0
SCALE
  5
5C
102
{ACAD_REACTORS
330
47
102
}
330
47
100
AcDbScale
 70
     0
300
1/16" = 1'-0"
140
0.0625
141
12.0
290
     0
  0
SCALE
  5
5D
102
{ACAD_REACTORS
330
47
102
}
330
47
100
AcDbScale
 70
     0
300
3/32" = 1'-0"
140
0.09375
141
12.0
290
     0
  0
SCALE
  5
5E
102
{ACAD_REACTORS
330
47
102
}
330
47
100
AcDbScale
 70
     0
300
1/8" = 1'-0"
140
0.125
141
12.0
290
     0
  0
SCALE
  5
5F
102
{ACAD_REACTORS
330
47
102
}
330
47
100
AcDbScale
 70
     0
300
3/16" = 1'-0"
140
0.1875
141
12.0
290
     0
  0
SCALE
  5
60
102
{ACAD_REACTORS
330
47
102
}
330
47
100
AcDbScale
 70
     0
300
1/4" = 1'-0"
140
0.25
141
12.0
290
     0
  0
SCALE
  5
61
102
{ACAD_REACTORS
330
47
102
}
330
47
100
AcDbScale
 70
     0
300
3/8" = 1'-0"
140
0.375
141
12.0
290
     0
  0
SCALE
  5
62
102
{ACAD_REACTORS
330
47
102
}
330
47
100
AcDbScale
 70
     0
300
1/2" = 1'-0"
140
0.5
141
12.0
290
     0
  0
SCALE
  5
63
102
{ACAD_REACTORS
330
47
102
}
330
47
100
AcDbScale
 70
     0
300
3/4" = 1'-0"
140
0.75
141
12.0
290
     0
  0
SCALE
  5
64
102
{ACAD_REACTORS
330
47
102
}
330
47
100
AcDbScale
 70
     0
300
1" = 1'-0"
140
1.0
141
12.0
290
     0
  0
SCALE
  5
65
102
{ACAD_REACTORS
330
47
102
}
330
47
100
AcDbScale
 70
     0
300
1-1/2" = 1'-0"
140
1.5
141
12.0
290
     0
  0
SCALE
  5
66
102
{ACAD_REACTORS
330
47
102
}
330
47
100
AcDbScale
 70
     0
300
3" = 1'-0"
140
3.0
141
12.0
290
     0
  0
SCALE
  5
67
102
{ACAD_REACTORS
330
47
102
}
330
47
100
AcDbScale
 70
     0
300
6" = 1'-0"
140
6.0
141
12.0
290
     0
  0
SCALE
  5
68
102
{ACAD_REACTORS
330
47
102
}
330
47
100
AcDbScale
 70
     0
300
1'-0" = 1'-0"
140
12.0
141
12.0
290
     0
  0
ENDSEC
  0
EOF
